ISO-10303-21;
HEADER;
FILE_DESCRIPTION (( 'STEP AP214' ),
    '1' );
FILE_NAME ('am-3947a-500 375H x 500IN Spacer.STEP',
    '2025-02-07T14:32:21',
    ( '' ),
    ( '' ),
    'SwSTEP 2.0',
    'SolidWorks 2024',
    '' );
FILE_SCHEMA (( 'AUTOMOTIVE_DESIGN' ));
ENDSEC;

DATA;
#1 = ADVANCED_FACE ( 'NONE', ( #99 ), #287, .T. ) ;
#2 = DIMENSIONAL_EXPONENTS ( 1.000000000000000000, 0.000000000000000000, 0.000000000000000000, 0.000000000000000000, 0.000000000000000000, 0.000000000000000000, 0.000000000000000000 ) ;
#3 = CARTESIAN_POINT ( 'NONE',  ( -0.3125000000000000000, 0.000000000000000000, 0.5000000000000000000 ) ) ;
#4 = ORIENTED_EDGE ( 'NONE', *, *, #321, .F. ) ;
#5 = AXIS2_PLACEMENT_3D ( 'NONE', #16, #300, #324 ) ;
#6 = EDGE_CURVE ( 'NONE', #112, #87, #223, .T. ) ;
#7 = ORIENTED_EDGE ( 'NONE', *, *, #68, .F. ) ;
#8 = VECTOR ( 'NONE', #331, 39.37007874015748143 ) ;
#9 = EDGE_LOOP ( 'NONE', ( #316, #91, #143, #291 ) ) ;
#10 = PRODUCT_DEFINITION ( 'UNKNOWN', '', #133, #267 ) ;
#11 = ORIENTED_EDGE ( 'NONE', *, *, #165, .F. ) ;
#12 = VERTEX_POINT ( 'NONE', #325 ) ;
#13 = STYLED_ITEM ( 'NONE', ( #56 ), #192 ) ;
#14 = ORIENTED_EDGE ( 'NONE', *, *, #248, .T. ) ;
#15 = PRODUCT_RELATED_PRODUCT_CATEGORY ( 'part', '', ( #183 ) ) ;
#16 = CARTESIAN_POINT ( 'NONE',  ( 0.1085418506076495232, 0.1880000000000000282, 0.5000000000000000000 ) ) ;
#17 = VERTEX_POINT ( 'NONE', #228 ) ;
#18 = CARTESIAN_POINT ( 'NONE',  ( -0.2170837012152992962, -6.822844948385385685E-21, 0.5000000000000000000 ) ) ;
#19 = CARTESIAN_POINT ( 'NONE',  ( -0.1085418506076496065, 0.1880000000000000282, 0.5000000000000000000 ) ) ;
#20 = FACE_OUTER_BOUND ( 'NONE', #312, .T. ) ;
#21 = CARTESIAN_POINT ( 'NONE',  ( 0.1085418506076495232, 0.1880000000000000282, 0.5000000000000000000 ) ) ;
#22 = DIRECTION ( 'NONE',  ( 0.000000000000000000, 0.000000000000000000, 1.000000000000000000 ) ) ;
#23 = DIRECTION ( 'NONE',  ( -0.000000000000000000, -0.000000000000000000, -1.000000000000000000 ) ) ;
#24 = CARTESIAN_POINT ( 'NONE',  ( 0.000000000000000000, 0.000000000000000000, 0.5000000000000000000 ) ) ;
#25 = DIRECTION ( 'NONE',  ( 0.5000000000000001110, 0.8660254037844385966, 0.000000000000000000 ) ) ;
#26 =( CONVERSION_BASED_UNIT ( 'INCH', #204 ) LENGTH_UNIT ( ) NAMED_UNIT ( #107 ) );
#27 = CARTESIAN_POINT ( 'NONE',  ( 0.000000000000000000, 0.000000000000000000, 0.5000000000000000000 ) ) ;
#28 = EDGE_CURVE ( 'NONE', #258, #112, #75, .T. ) ;
#29 = CIRCLE ( 'NONE', #168, 0.3125000000000000000 ) ;
#30 = FILL_AREA_STYLE_COLOUR ( '', #85 ) ;
#31 = EDGE_LOOP ( 'NONE', ( #262, #97, #36, #118 ) ) ;
#32 = PRODUCT_CONTEXT ( 'NONE', #276, 'mechanical' ) ;
#33 = AXIS2_PLACEMENT_3D ( 'NONE', #297, #155, #249 ) ;
#34 = DIRECTION ( 'NONE',  ( 0.000000000000000000, 0.000000000000000000, 1.000000000000000000 ) ) ;
#35 =( GEOMETRIC_REPRESENTATION_CONTEXT ( 3 ) GLOBAL_UNCERTAINTY_ASSIGNED_CONTEXT ( ( #167 ) ) GLOBAL_UNIT_ASSIGNED_CONTEXT ( ( #26, #136, #278 ) ) REPRESENTATION_CONTEXT ( 'NONE', 'WORKASPACE' ) );
#36 = ORIENTED_EDGE ( 'NONE', *, *, #321, .T. ) ;
#37 = ORIENTED_EDGE ( 'NONE', *, *, #257, .T. ) ;
#38 = EDGE_CURVE ( 'NONE', #237, #112, #250, .T. ) ;
#39 = EDGE_LOOP ( 'NONE', ( #166, #235, #314, #4, #212, #93 ) ) ;
#40 = EDGE_LOOP ( 'NONE', ( #163, #213, #63, #65 ) ) ;
#41 = ADVANCED_FACE ( 'NONE', ( #127 ), #132, .T. ) ;
#42 = ORIENTED_EDGE ( 'NONE', *, *, #76, .F. ) ;
#43 = VECTOR ( 'NONE', #125, 39.37007874015748143 ) ;
#44 = ORIENTED_EDGE ( 'NONE', *, *, #64, .T. ) ;
#45 = CYLINDRICAL_SURFACE ( 'NONE', #51, 0.3125000000000000000 ) ;
#46 = PLANE ( 'NONE',  #89 ) ;
#47 = CARTESIAN_POINT ( 'NONE',  ( -0.1085418506076496065, -0.1879999999999999727, 0.5000000000000000000 ) ) ;
#48 = DIRECTION ( 'NONE',  ( -0.000000000000000000, -0.000000000000000000, -1.000000000000000000 ) ) ;
#49 = DIRECTION ( 'NONE',  ( 0.5000000000000001110, -0.8660254037844385966, 0.000000000000000000 ) ) ;
#50 = CARTESIAN_POINT ( 'NONE',  ( 0.000000000000000000, 0.000000000000000000, 0.000000000000000000 ) ) ;
#51 = AXIS2_PLACEMENT_3D ( 'NONE', #196, #247, #296 ) ;
#52 = CARTESIAN_POINT ( 'NONE',  ( 0.000000000000000000, 0.000000000000000000, 0.5000000000000000000 ) ) ;
#53 = SHAPE_DEFINITION_REPRESENTATION ( #138, #217 ) ;
#54 = ADVANCED_FACE ( 'NONE', ( #269 ), #46, .T. ) ;
#55 = FACE_BOUND ( 'NONE', #160, .T. ) ;
#56 = PRESENTATION_STYLE_ASSIGNMENT (( #310 ) ) ;
#57 = VECTOR ( 'NONE', #221, 39.37007874015748143 ) ;
#58 = SURFACE_STYLE_FILL_AREA ( #137 ) ;
#59 = CARTESIAN_POINT ( 'NONE',  ( 0.2170837012152992962, -8.629126648930641522E-21, 0.5000000000000000000 ) ) ;
#60 = EDGE_LOOP ( 'NONE', ( #42, #188 ) ) ;
#61 = VECTOR ( 'NONE', #23, 39.37007874015748143 ) ;
#62 = AXIS2_PLACEMENT_3D ( 'NONE', #306, #34, #254 ) ;
#63 = ORIENTED_EDGE ( 'NONE', *, *, #119, .T. ) ;
#64 = EDGE_CURVE ( 'NONE', #69, #17, #219, .T. ) ;
#65 = ORIENTED_EDGE ( 'NONE', *, *, #165, .T. ) ;
#66 = VECTOR ( 'NONE', #153, 39.37007874015748143 ) ;
#67 = ORIENTED_EDGE ( 'NONE', *, *, #90, .T. ) ;
#68 = EDGE_CURVE ( 'NONE', #311, #141, #29, .T. ) ;
#69 = VERTEX_POINT ( 'NONE', #81 ) ;
#70 = DIRECTION ( 'NONE',  ( 0.5000000000000004441, -0.8660254037844383745, 0.000000000000000000 ) ) ;
#71 = CARTESIAN_POINT ( 'NONE',  ( -0.1085418506076496065, -0.1879999999999999727, 0.5000000000000000000 ) ) ;
#72 = VECTOR ( 'NONE', #327, 39.37007874015748143 ) ;
#73 = FACE_OUTER_BOUND ( 'NONE', #9, .T. ) ;
#74 = PLANE ( 'NONE',  #255 ) ;
#75 = LINE ( 'NONE', #244, #61 ) ;
#76 = EDGE_CURVE ( 'NONE', #17, #69, #280, .T. ) ;
#77 = LINE ( 'NONE', #18, #303 ) ;
#78 = DIRECTION ( 'NONE',  ( 0.000000000000000000, 0.000000000000000000, 1.000000000000000000 ) ) ;
#79 = CARTESIAN_POINT ( 'NONE',  ( 0.2170837012152992962, -8.629126648930641522E-21, 0.000000000000000000 ) ) ;
#80 =( GEOMETRIC_REPRESENTATION_CONTEXT ( 3 ) GLOBAL_UNCERTAINTY_ASSIGNED_CONTEXT ( ( #195 ) ) GLOBAL_UNIT_ASSIGNED_CONTEXT ( ( #159, #134, #176 ) ) REPRESENTATION_CONTEXT ( 'NONE', 'WORKASPACE' ) );
#81 = CARTESIAN_POINT ( 'NONE',  ( 0.3125000000000000000, 3.827021247335478926E-17, 0.000000000000000000 ) ) ;
#82 = CARTESIAN_POINT ( 'NONE',  ( 0.1085418506076496203, -0.1879999999999999727, 0.5000000000000000000 ) ) ;
#83 = CARTESIAN_POINT ( 'NONE',  ( 0.1085418506076495232, 0.1880000000000000282, 0.5000000000000000000 ) ) ;
#84 = CARTESIAN_POINT ( 'NONE',  ( 0.1085418506076495232, 0.1880000000000000282, 0.000000000000000000 ) ) ;
#85 = COLOUR_RGB ( '',0.7921568627450980005, 0.8196078431372548767, 0.9333333333333333481 ) ;
#86 =( LENGTH_UNIT ( ) NAMED_UNIT ( * ) SI_UNIT ( $, .METRE. ) );
#87 = VERTEX_POINT ( 'NONE', #275 ) ;
#88 = EDGE_LOOP ( 'NONE', ( #209, #253, #142, #14 ) ) ;
#89 = AXIS2_PLACEMENT_3D ( 'NONE', #174, #299, #178 ) ;
#90 = EDGE_CURVE ( 'NONE', #95, #320, #301, .T. ) ;
#91 = ORIENTED_EDGE ( 'NONE', *, *, #248, .F. ) ;
#92 = EDGE_LOOP ( 'NONE', ( #263, #317 ) ) ;
#93 = ORIENTED_EDGE ( 'NONE', *, *, #157, .F. ) ;
#94 = AXIS2_PLACEMENT_3D ( 'NONE', #218, #266, #333 ) ;
#95 = VERTEX_POINT ( 'NONE', #121 ) ;
#96 = CARTESIAN_POINT ( 'NONE',  ( 0.1085418506076495232, 0.1880000000000000282, 0.000000000000000000 ) ) ;
#97 = ORIENTED_EDGE ( 'NONE', *, *, #28, .F. ) ;
#98 = DIRECTION ( 'NONE',  ( 0.000000000000000000, -0.000000000000000000, 1.000000000000000000 ) ) ;
#99 = FACE_OUTER_BOUND ( 'NONE', #261, .T. ) ;
#100 = DIRECTION ( 'NONE',  ( -0.000000000000000000, -0.000000000000000000, -1.000000000000000000 ) ) ;
#101 = EDGE_CURVE ( 'NONE', #161, #95, #294, .T. ) ;
#102 = DIRECTION ( 'NONE',  ( 0.000000000000000000, 0.000000000000000000, 1.000000000000000000 ) ) ;
#103 = FACE_OUTER_BOUND ( 'NONE', #260, .T. ) ;
#104 = LINE ( 'NONE', #79, #295 ) ;
#105 = CARTESIAN_POINT ( 'NONE',  ( 0.000000000000000000, 0.000000000000000000, 0.000000000000000000 ) ) ;
#106 = EDGE_CURVE ( 'NONE', #186, #258, #201, .T. ) ;
#107 = DIMENSIONAL_EXPONENTS ( 1.000000000000000000, 0.000000000000000000, 0.000000000000000000, 0.000000000000000000, 0.000000000000000000, 0.000000000000000000, 0.000000000000000000 ) ;
#108 = PLANE ( 'NONE',  #33 ) ;
#109 =( LENGTH_UNIT ( ) NAMED_UNIT ( * ) SI_UNIT ( $, .METRE. ) );
#110 = DIRECTION ( 'NONE',  ( -0.000000000000000000, -0.000000000000000000, -1.000000000000000000 ) ) ;
#111 = LINE ( 'NONE', #83, #123 ) ;
#112 = VERTEX_POINT ( 'NONE', #177 ) ;
#113 = EDGE_CURVE ( 'NONE', #141, #311, #326, .T. ) ;
#114 = VECTOR ( 'NONE', #298, 39.37007874015748143 ) ;
#115 = ORIENTED_EDGE ( 'NONE', *, *, #283, .T. ) ;
#116 = ORIENTED_EDGE ( 'NONE', *, *, #307, .T. ) ;
#117 = CARTESIAN_POINT ( 'NONE',  ( -0.2170837012152992962, -6.822844948385385685E-21, 0.5000000000000000000 ) ) ;
#118 = ORIENTED_EDGE ( 'NONE', *, *, #180, .T. ) ;
#119 = EDGE_CURVE ( 'NONE', #282, #161, #197, .T. ) ;
#120 = CARTESIAN_POINT ( 'NONE',  ( -0.1085418506076496065, 0.1880000000000000282, 0.5000000000000000000 ) ) ;
#121 = CARTESIAN_POINT ( 'NONE',  ( 0.1085418506076495232, 0.1880000000000000282, 0.5000000000000000000 ) ) ;
#122 = FACE_OUTER_BOUND ( 'NONE', #92, .T. ) ;
#123 = VECTOR ( 'NONE', #281, 39.37007874015748143 ) ;
#124 = DIRECTION ( 'NONE',  ( -0.000000000000000000, -0.000000000000000000, -1.000000000000000000 ) ) ;
#125 = DIRECTION ( 'NONE',  ( -0.000000000000000000, -0.000000000000000000, -1.000000000000000000 ) ) ;
#126 = ADVANCED_FACE ( 'NONE', ( #73 ), #108, .T. ) ;
#127 = FACE_OUTER_BOUND ( 'NONE', #40, .T. ) ;
#128 = APPLICATION_CONTEXT ( 'automotive_design' ) ;
#129 = CARTESIAN_POINT ( 'NONE',  ( 0.2170837012152992962, -8.629126648930641522E-21, 0.5000000000000000000 ) ) ;
#130 = CARTESIAN_POINT ( 'NONE',  ( 0.2170837012152992962, -8.629126648930641522E-21, 0.5000000000000000000 ) ) ;
#131 = AXIS2_PLACEMENT_3D ( 'NONE', #145, #322, #98 ) ;
#132 = PLANE ( 'NONE',  #94 ) ;
#133 = PRODUCT_DEFINITION_FORMATION_WITH_SPECIFIED_SOURCE ( 'ANY', '', #183, .NOT_KNOWN. ) ;
#134 =( NAMED_UNIT ( * ) PLANE_ANGLE_UNIT ( ) SI_UNIT ( $, .RADIAN. ) );
#135 = ADVANCED_FACE ( 'NONE', ( #202, #55 ), #170, .F. ) ;
#136 =( NAMED_UNIT ( * ) PLANE_ANGLE_UNIT ( ) SI_UNIT ( $, .RADIAN. ) );
#137 = FILL_AREA_STYLE ('',( #30 ) ) ;
#138 = PRODUCT_DEFINITION_SHAPE ( 'NONE', 'NONE',  #10 ) ;
#139 = AXIS2_PLACEMENT_3D ( 'NONE', #52, #304, #225 ) ;
#140 = ORIENTED_EDGE ( 'NONE', *, *, #38, .T. ) ;
#141 = VERTEX_POINT ( 'NONE', #3 ) ;
#142 = ORIENTED_EDGE ( 'NONE', *, *, #157, .T. ) ;
#143 = ORIENTED_EDGE ( 'NONE', *, *, #106, .T. ) ;
#144 = EDGE_LOOP ( 'NONE', ( #7, #37, #44, #234 ) ) ;
#145 = CARTESIAN_POINT ( 'NONE',  ( -0.1085418506076496065, -0.1879999999999999727, 0.5000000000000000000 ) ) ;
#146 = ORIENTED_EDGE ( 'NONE', *, *, #313, .T. ) ;
#147 = LINE ( 'NONE', #154, #114 ) ;
#148 = DIRECTION ( 'NONE',  ( 1.000000000000000000, 0.000000000000000000, 0.000000000000000000 ) ) ;
#149 = FACE_BOUND ( 'NONE', #39, .T. ) ;
#150 = CARTESIAN_POINT ( 'NONE',  ( 0.000000000000000000, 0.000000000000000000, 0.5000000000000000000 ) ) ;
#151 = PLANE ( 'NONE',  #5 ) ;
#152 = PRESENTATION_LAYER_ASSIGNMENT (  '', '', ( #13 ) ) ;
#153 = DIRECTION ( 'NONE',  ( 0.5000000000000001110, -0.8660254037844385966, 0.000000000000000000 ) ) ;
#154 = CARTESIAN_POINT ( 'NONE',  ( 0.1085418506076496203, -0.1879999999999999727, 0.000000000000000000 ) ) ;
#155 = DIRECTION ( 'NONE',  ( 0.8660254037844385966, -0.5000000000000001110, 0.000000000000000000 ) ) ;
#156 = DIRECTION ( 'NONE',  ( 1.000000000000000000, 0.000000000000000000, -0.000000000000000000 ) ) ;
#157 = EDGE_CURVE ( 'NONE', #95, #186, #111, .T. ) ;
#158 = CARTESIAN_POINT ( 'NONE',  ( 0.2170837012152992962, -8.629126648930641522E-21, 0.5000000000000000000 ) ) ;
#159 =( CONVERSION_BASED_UNIT ( 'INCH', #284 ) LENGTH_UNIT ( ) NAMED_UNIT ( #2 ) );
#160 = EDGE_LOOP ( 'NONE', ( #146, #286, #216, #140, #256, #115 ) ) ;
#161 = VERTEX_POINT ( 'NONE', #59 ) ;
#162 = ORIENTED_EDGE ( 'NONE', *, *, #283, .F. ) ;
#163 = ORIENTED_EDGE ( 'NONE', *, *, #313, .F. ) ;
#164 = PLANE ( 'NONE',  #131 ) ;
#165 = EDGE_CURVE ( 'NONE', #161, #12, #182, .T. ) ;
#166 = ORIENTED_EDGE ( 'NONE', *, *, #101, .F. ) ;
#167 = UNCERTAINTY_MEASURE_WITH_UNIT (LENGTH_MEASURE( 1.000000000000000082E-05 ), #26, 'distance_accuracy_value', 'NONE');
#168 = AXIS2_PLACEMENT_3D ( 'NONE', #150, #194, #330 ) ;
#169 = CARTESIAN_POINT ( 'NONE',  ( 0.3125000000000000000, 3.827021247335478926E-17, 0.5000000000000000000 ) ) ;
#170 = PLANE ( 'NONE',  #319 ) ;
#171 = PLANE ( 'NONE',  #315 ) ;
#172 = CARTESIAN_POINT ( 'NONE',  ( 0.000000000000000000, 0.000000000000000000, 0.000000000000000000 ) ) ;
#173 = CARTESIAN_POINT ( 'NONE',  ( 0.3125000000000000000, 3.827021247335478926E-17, 0.5000000000000000000 ) ) ;
#174 = CARTESIAN_POINT ( 'NONE',  ( -0.2170837012152992962, -6.822844948385385685E-21, 0.5000000000000000000 ) ) ;
#175 = AXIS2_PLACEMENT_3D ( 'NONE', #27, #48, #328 ) ;
#176 =( NAMED_UNIT ( * ) SI_UNIT ( $, .STERADIAN. ) SOLID_ANGLE_UNIT ( ) );
#177 = CARTESIAN_POINT ( 'NONE',  ( -0.2170837012152992962, -6.822844948385385685E-21, 0.000000000000000000 ) ) ;
#178 = DIRECTION ( 'NONE',  ( -0.5000000000000001110, 0.8660254037844385966, 0.000000000000000000 ) ) ;
#179 = APPLICATION_PROTOCOL_DEFINITION ( 'draft international standard', 'automotive_design', 1998, #276 ) ;
#180 = EDGE_CURVE ( 'NONE', #288, #87, #279, .T. ) ;
#181 = VECTOR ( 'NONE', #110, 39.37007874015748143 ) ;
#182 = LINE ( 'NONE', #158, #181 ) ;
#183 = PRODUCT ( 'am-3947a-500 375H x 500IN Spacer', 'am-3947a-500 375H x 500IN Spacer', '', ( #32 ) ) ;
#184 = ORIENTED_EDGE ( 'NONE', *, *, #257, .F. ) ;
#185 = VECTOR ( 'NONE', #305, 39.37007874015748143 ) ;
#186 = VERTEX_POINT ( 'NONE', #308 ) ;
#187 = EDGE_CURVE ( 'NONE', #320, #237, #206, .T. ) ;
#188 = ORIENTED_EDGE ( 'NONE', *, *, #64, .F. ) ;
#189 = ORIENTED_EDGE ( 'NONE', *, *, #113, .F. ) ;
#190 = DIRECTION ( 'NONE',  ( 1.000000000000000000, 0.000000000000000000, -0.000000000000000000 ) ) ;
#191 = ORIENTED_EDGE ( 'NONE', *, *, #214, .T. ) ;
#192 = MANIFOLD_SOLID_BREP ( 'Boss-Extrude1', #259 ) ;
#193 = DIRECTION ( 'NONE',  ( -0.000000000000000000, -0.000000000000000000, -1.000000000000000000 ) ) ;
#194 = DIRECTION ( 'NONE',  ( 0.000000000000000000, 0.000000000000000000, 1.000000000000000000 ) ) ;
#195 = UNCERTAINTY_MEASURE_WITH_UNIT (LENGTH_MEASURE( 1.000000000000000082E-05 ), #159, 'distance_accuracy_value', 'NONE');
#196 = CARTESIAN_POINT ( 'NONE',  ( 0.000000000000000000, 0.000000000000000000, 0.5000000000000000000 ) ) ;
#197 = LINE ( 'NONE', #82, #332 ) ;
#198 = CARTESIAN_POINT ( 'NONE',  ( -0.1085418506076496065, -0.1879999999999999727, 0.000000000000000000 ) ) ;
#199 = CARTESIAN_POINT ( 'NONE',  ( -0.1085418506076496065, 0.1880000000000000282, 0.000000000000000000 ) ) ;
#200 = LINE ( 'NONE', #265, #207 ) ;
#201 = LINE ( 'NONE', #19, #8 ) ;
#202 = FACE_OUTER_BOUND ( 'NONE', #60, .T. ) ;
#203 = EDGE_CURVE ( 'NONE', #141, #17, #200, .T. ) ;
#204 = LENGTH_MEASURE_WITH_UNIT ( LENGTH_MEASURE( 0.02539999999999999897 ), #109 );
#205 = DIRECTION ( 'NONE',  ( -1.000000000000000000, 0.000000000000000000, 0.000000000000000000 ) ) ;
#206 = LINE ( 'NONE', #84, #289 ) ;
#207 = VECTOR ( 'NONE', #193, 39.37007874015748143 ) ;
#208 = SURFACE_SIDE_STYLE ('',( #58 ) ) ;
#209 = ORIENTED_EDGE ( 'NONE', *, *, #187, .F. ) ;
#210 = AXIS2_PLACEMENT_3D ( 'NONE', #105, #102, #277 ) ;
#211 = ADVANCED_FACE ( 'NONE', ( #230 ), #151, .T. ) ;
#212 = ORIENTED_EDGE ( 'NONE', *, *, #106, .F. ) ;
#213 = ORIENTED_EDGE ( 'NONE', *, *, #214, .F. ) ;
#214 = EDGE_CURVE ( 'NONE', #282, #239, #293, .T. ) ;
#215 = CARTESIAN_POINT ( 'NONE',  ( 0.1085418506076496203, -0.1879999999999999727, 0.5000000000000000000 ) ) ;
#216 = ORIENTED_EDGE ( 'NONE', *, *, #187, .T. ) ;
#217 = ADVANCED_BREP_SHAPE_REPRESENTATION ( 'am-3947a-500 375H x 500IN Spacer', ( #192, #62 ), #35 ) ;
#218 = CARTESIAN_POINT ( 'NONE',  ( 0.1085418506076496203, -0.1879999999999999727, 0.5000000000000000000 ) ) ;
#219 = CIRCLE ( 'NONE', #272, 0.3125000000000000000 ) ;
#220 = LINE ( 'NONE', #173, #72 ) ;
#221 = DIRECTION ( 'NONE',  ( -0.5000000000000001110, -0.8660254037844385966, 0.000000000000000000 ) ) ;
#222 = LINE ( 'NONE', #198, #227 ) ;
#223 = LINE ( 'NONE', #271, #66 ) ;
#224 = DIRECTION ( 'NONE',  ( 1.000000000000000000, 0.000000000000000000, 0.000000000000000000 ) ) ;
#225 = DIRECTION ( 'NONE',  ( 1.000000000000000000, 0.000000000000000000, 0.000000000000000000 ) ) ;
#226 = ADVANCED_FACE ( 'NONE', ( #122, #149 ), #74, .T. ) ;
#227 = VECTOR ( 'NONE', #240, 39.37007874015748143 ) ;
#228 = CARTESIAN_POINT ( 'NONE',  ( -0.3125000000000000000, 0.000000000000000000, 0.000000000000000000 ) ) ;
#229 = APPLICATION_PROTOCOL_DEFINITION ( 'draft international standard', 'automotive_design', 1998, #128 ) ;
#230 = FACE_OUTER_BOUND ( 'NONE', #88, .T. ) ;
#231 = VECTOR ( 'NONE', #246, 39.37007874015748143 ) ;
#232 = ORIENTED_EDGE ( 'NONE', *, *, #76, .T. ) ;
#233 = ADVANCED_FACE ( 'NONE', ( #20 ), #164, .T. ) ;
#234 = ORIENTED_EDGE ( 'NONE', *, *, #203, .F. ) ;
#235 = ORIENTED_EDGE ( 'NONE', *, *, #119, .F. ) ;
#236 = ORIENTED_EDGE ( 'NONE', *, *, #203, .T. ) ;
#237 = VERTEX_POINT ( 'NONE', #245 ) ;
#238 = DIRECTION ( 'NONE',  ( -0.5000000000000004441, 0.8660254037844383745, 0.000000000000000000 ) ) ;
#239 = VERTEX_POINT ( 'NONE', #292 ) ;
#240 = DIRECTION ( 'NONE',  ( 1.000000000000000000, 0.000000000000000000, 0.000000000000000000 ) ) ;
#241 = DIRECTION ( 'NONE',  ( 0.000000000000000000, 0.000000000000000000, 1.000000000000000000 ) ) ;
#242 = EDGE_CURVE ( 'NONE', #12, #320, #104, .T. ) ;
#243 = CARTESIAN_POINT ( 'NONE',  ( 0.1085418506076496203, -0.1879999999999999727, 0.5000000000000000000 ) ) ;
#244 = CARTESIAN_POINT ( 'NONE',  ( -0.2170837012152992962, -6.822844948385385685E-21, 0.5000000000000000000 ) ) ;
#245 = CARTESIAN_POINT ( 'NONE',  ( -0.1085418506076496065, 0.1880000000000000282, 0.000000000000000000 ) ) ;
#246 = DIRECTION ( 'NONE',  ( -0.5000000000000004441, 0.8660254037844383745, 0.000000000000000000 ) ) ;
#247 = DIRECTION ( 'NONE',  ( -0.000000000000000000, -0.000000000000000000, -1.000000000000000000 ) ) ;
#248 = EDGE_CURVE ( 'NONE', #186, #237, #274, .T. ) ;
#249 = DIRECTION ( 'NONE',  ( 0.5000000000000001110, 0.8660254037844385966, 0.000000000000000000 ) ) ;
#250 = LINE ( 'NONE', #199, #57 ) ;
#251 = VECTOR ( 'NONE', #224, 39.37007874015748143 ) ;
#252 = CARTESIAN_POINT ( 'NONE',  ( -0.1085418506076496065, -0.1879999999999999727, 0.5000000000000000000 ) ) ;
#253 = ORIENTED_EDGE ( 'NONE', *, *, #90, .F. ) ;
#254 = DIRECTION ( 'NONE',  ( 1.000000000000000000, 0.000000000000000000, 0.000000000000000000 ) ) ;
#255 = AXIS2_PLACEMENT_3D ( 'NONE', #24, #22, #190 ) ;
#256 = ORIENTED_EDGE ( 'NONE', *, *, #6, .T. ) ;
#257 = EDGE_CURVE ( 'NONE', #311, #69, #220, .T. ) ;
#258 = VERTEX_POINT ( 'NONE', #117 ) ;
#259 = CLOSED_SHELL ( 'NONE', ( #273, #226, #135, #1, #41, #285, #211, #126, #54, #233 ) ) ;
#260 = EDGE_LOOP ( 'NONE', ( #323, #11, #318, #67 ) ) ;
#261 = EDGE_LOOP ( 'NONE', ( #184, #189, #236, #232 ) ) ;
#262 = ORIENTED_EDGE ( 'NONE', *, *, #6, .F. ) ;
#263 = ORIENTED_EDGE ( 'NONE', *, *, #113, .T. ) ;
#264 = VECTOR ( 'NONE', #124, 39.37007874015748143 ) ;
#265 = CARTESIAN_POINT ( 'NONE',  ( -0.3125000000000000000, 0.000000000000000000, 0.5000000000000000000 ) ) ;
#266 = DIRECTION ( 'NONE',  ( -0.8660254037844385966, 0.5000000000000001110, 0.000000000000000000 ) ) ;
#267 = PRODUCT_DEFINITION_CONTEXT ( 'detailed design', #128, 'design' ) ;
#268 = LINE ( 'NONE', #47, #251 ) ;
#269 = FACE_OUTER_BOUND ( 'NONE', #31, .T. ) ;
#270 = FACE_OUTER_BOUND ( 'NONE', #144, .T. ) ;
#271 = CARTESIAN_POINT ( 'NONE',  ( -0.2170837012152992962, -6.822844948385385685E-21, 0.000000000000000000 ) ) ;
#272 = AXIS2_PLACEMENT_3D ( 'NONE', #50, #78, #148 ) ;
#273 = ADVANCED_FACE ( 'NONE', ( #270 ), #45, .T. ) ;
#274 = LINE ( 'NONE', #120, #302 ) ;
#275 = CARTESIAN_POINT ( 'NONE',  ( -0.1085418506076496065, -0.1879999999999999727, 0.000000000000000000 ) ) ;
#276 = APPLICATION_CONTEXT ( 'automotive_design' ) ;
#277 = DIRECTION ( 'NONE',  ( 1.000000000000000000, 0.000000000000000000, 0.000000000000000000 ) ) ;
#278 =( NAMED_UNIT ( * ) SI_UNIT ( $, .STERADIAN. ) SOLID_ANGLE_UNIT ( ) );
#279 = LINE ( 'NONE', #252, #185 ) ;
#280 = CIRCLE ( 'NONE', #210, 0.3125000000000000000 ) ;
#281 = DIRECTION ( 'NONE',  ( -1.000000000000000000, 0.000000000000000000, 0.000000000000000000 ) ) ;
#282 = VERTEX_POINT ( 'NONE', #215 ) ;
#283 = EDGE_CURVE ( 'NONE', #87, #239, #222, .T. ) ;
#284 = LENGTH_MEASURE_WITH_UNIT ( LENGTH_MEASURE( 0.02539999999999999897 ), #86 );
#285 = ADVANCED_FACE ( 'NONE', ( #103 ), #171, .T. ) ;
#286 = ORIENTED_EDGE ( 'NONE', *, *, #242, .T. ) ;
#287 = CYLINDRICAL_SURFACE ( 'NONE', #175, 0.3125000000000000000 ) ;
#288 = VERTEX_POINT ( 'NONE', #71 ) ;
#289 = VECTOR ( 'NONE', #205, 39.37007874015748143 ) ;
#290 = ORIENTED_EDGE ( 'NONE', *, *, #180, .F. ) ;
#291 = ORIENTED_EDGE ( 'NONE', *, *, #28, .T. ) ;
#292 = CARTESIAN_POINT ( 'NONE',  ( 0.1085418506076496203, -0.1879999999999999727, 0.000000000000000000 ) ) ;
#293 = LINE ( 'NONE', #243, #43 ) ;
#294 = LINE ( 'NONE', #130, #231 ) ;
#295 = VECTOR ( 'NONE', #238, 39.37007874015748143 ) ;
#296 = DIRECTION ( 'NONE',  ( -1.000000000000000000, 0.000000000000000000, 0.000000000000000000 ) ) ;
#297 = CARTESIAN_POINT ( 'NONE',  ( -0.1085418506076496065, 0.1880000000000000282, 0.5000000000000000000 ) ) ;
#298 = DIRECTION ( 'NONE',  ( 0.5000000000000001110, 0.8660254037844385966, 0.000000000000000000 ) ) ;
#299 = DIRECTION ( 'NONE',  ( 0.8660254037844385966, 0.5000000000000001110, -0.000000000000000000 ) ) ;
#300 = DIRECTION ( 'NONE',  ( 0.000000000000000000, -1.000000000000000000, 0.000000000000000000 ) ) ;
#301 = LINE ( 'NONE', #21, #264 ) ;
#302 = VECTOR ( 'NONE', #100, 39.37007874015748143 ) ;
#303 = VECTOR ( 'NONE', #49, 39.37007874015748143 ) ;
#304 = DIRECTION ( 'NONE',  ( 0.000000000000000000, 0.000000000000000000, 1.000000000000000000 ) ) ;
#305 = DIRECTION ( 'NONE',  ( -0.000000000000000000, -0.000000000000000000, -1.000000000000000000 ) ) ;
#306 = CARTESIAN_POINT ( 'NONE',  ( 0.000000000000000000, 0.000000000000000000, 0.000000000000000000 ) ) ;
#307 = EDGE_CURVE ( 'NONE', #288, #282, #268, .T. ) ;
#308 = CARTESIAN_POINT ( 'NONE',  ( -0.1085418506076496065, 0.1880000000000000282, 0.5000000000000000000 ) ) ;
#309 = MECHANICAL_DESIGN_GEOMETRIC_PRESENTATION_REPRESENTATION (  '', ( #13 ), #80 ) ;
#310 = SURFACE_STYLE_USAGE ( .BOTH. , #208 ) ;
#311 = VERTEX_POINT ( 'NONE', #169 ) ;
#312 = EDGE_LOOP ( 'NONE', ( #162, #290, #116, #191 ) ) ;
#313 = EDGE_CURVE ( 'NONE', #239, #12, #147, .T. ) ;
#314 = ORIENTED_EDGE ( 'NONE', *, *, #307, .F. ) ;
#315 = AXIS2_PLACEMENT_3D ( 'NONE', #129, #329, #70 ) ;
#316 = ORIENTED_EDGE ( 'NONE', *, *, #38, .F. ) ;
#317 = ORIENTED_EDGE ( 'NONE', *, *, #68, .T. ) ;
#318 = ORIENTED_EDGE ( 'NONE', *, *, #101, .T. ) ;
#319 = AXIS2_PLACEMENT_3D ( 'NONE', #172, #241, #156 ) ;
#320 = VERTEX_POINT ( 'NONE', #96 ) ;
#321 = EDGE_CURVE ( 'NONE', #258, #288, #77, .T. ) ;
#322 = DIRECTION ( 'NONE',  ( 0.000000000000000000, 1.000000000000000000, 0.000000000000000000 ) ) ;
#323 = ORIENTED_EDGE ( 'NONE', *, *, #242, .F. ) ;
#324 = DIRECTION ( 'NONE',  ( 0.000000000000000000, -0.000000000000000000, -1.000000000000000000 ) ) ;
#325 = CARTESIAN_POINT ( 'NONE',  ( 0.2170837012152992962, -8.629126648930641522E-21, 0.000000000000000000 ) ) ;
#326 = CIRCLE ( 'NONE', #139, 0.3125000000000000000 ) ;
#327 = DIRECTION ( 'NONE',  ( -0.000000000000000000, -0.000000000000000000, -1.000000000000000000 ) ) ;
#328 = DIRECTION ( 'NONE',  ( -1.000000000000000000, 0.000000000000000000, 0.000000000000000000 ) ) ;
#329 = DIRECTION ( 'NONE',  ( -0.8660254037844383745, -0.5000000000000004441, 0.000000000000000000 ) ) ;
#330 = DIRECTION ( 'NONE',  ( 1.000000000000000000, 0.000000000000000000, 0.000000000000000000 ) ) ;
#331 = DIRECTION ( 'NONE',  ( -0.5000000000000001110, -0.8660254037844385966, 0.000000000000000000 ) ) ;
#332 = VECTOR ( 'NONE', #25, 39.37007874015748143 ) ;
#333 = DIRECTION ( 'NONE',  ( -0.5000000000000001110, -0.8660254037844385966, 0.000000000000000000 ) ) ;
ENDSEC;
END-ISO-10303-21;
